ISO-10303-21;
HEADER;
FILE_DESCRIPTION(('CATIA V5 STEP Exchange'),'2;1');

FILE_NAME('C:\\Users\\Astroboy\\Desktop\\RIDIX\\work\\RDBA203.1960.stp','2017-03-07T14:05:30+00:00',('none'),('none'),'CATIA Version 5 Release 19 GA (IN-10)','CATIA V5 STEP AP203','none');

FILE_SCHEMA(('CONFIG_CONTROL_DESIGN'));

ENDSEC;
/* file written by CATIA V5R19 */
DATA;
#5=PRODUCT('RDBA203.1960','','BOCCOLA\X2\000D\X0\\X2\000A\X0\SCORRIMENTI EUROPE\X2\000D\X0\\X2\000A\X0\',(#2)) ;
#1=APPLICATION_CONTEXT('configuration controlled 3D design of mechanical parts and assemblies') ;
#14=PRODUCT_DEFINITION('',' ',#6,#3) ;
#16=SECURITY_CLASSIFICATION(' ',' ',#15) ;
#15=SECURITY_CLASSIFICATION_LEVEL('unclassified') ;
#47=CARTESIAN_POINT(' ',(0.,0.,0.)) ;
#51=CARTESIAN_POINT('Line Origine',(0.,0.,0.)) ;
#55=CARTESIAN_POINT('Limit',(0.,0.,0.)) ;
#56=CARTESIAN_POINT('Limit',(20.,0.,0.)) ;
#63=CARTESIAN_POINT('Line Origine',(0.,0.,0.)) ;
#67=CARTESIAN_POINT('Limit',(0.,0.,0.)) ;
#68=CARTESIAN_POINT('Limit',(0.,20.,0.)) ;
#72=CARTESIAN_POINT('Line Origine',(0.,0.,0.)) ;
#76=CARTESIAN_POINT('Limit',(0.,0.,0.)) ;
#77=CARTESIAN_POINT('Limit',(0.,0.,20.)) ;
#81=CARTESIAN_POINT('Punto.4',(0.,0.,0.)) ;
#83=CARTESIAN_POINT('Axis2P3D Location',(0.,0.,-15.)) ;
#88=CARTESIAN_POINT('Axis2P3D Location',(0.,0.,-15.)) ;
#92=CARTESIAN_POINT('Vertex',(-11.4085733046,6.23253200185,-15.)) ;
#94=CARTESIAN_POINT('Vertex',(11.4085733046,-6.23253200185,-15.)) ;
#97=CARTESIAN_POINT('Line Origine',(-12.2861558665,6.71195754046,-14.)) ;
#101=CARTESIAN_POINT('Vertex',(-13.1637384284,7.19138307906,-13.)) ;
#104=CARTESIAN_POINT('Axis2P3D Location',(0.,0.,-13.)) ;
#108=CARTESIAN_POINT('Vertex',(13.1637384284,-7.19138307906,-13.)) ;
#111=CARTESIAN_POINT('Line Origine',(12.2861558665,-6.71195754046,-14.)) ;
#123=CARTESIAN_POINT('Axis2P3D Location',(0.,0.,-15.)) ;
#128=CARTESIAN_POINT('Axis2P3D Location',(0.,0.,-13.)) ;
#140=CARTESIAN_POINT('Axis2P3D Location',(0.,0.,15.0000000002)) ;
#145=CARTESIAN_POINT('Line Origine',(-13.1637384284,7.19138307906,14.9)) ;
#149=CARTESIAN_POINT('Vertex',(-13.1637384284,7.19138307906,0.)) ;
#152=CARTESIAN_POINT('Axis2P3D Location',(0.,0.,0.)) ;
#156=CARTESIAN_POINT('Vertex',(13.1637384284,-7.19138307906,0.)) ;
#159=CARTESIAN_POINT('Line Origine',(13.1637384284,-7.19138307906,14.9)) ;
#171=CARTESIAN_POINT('Axis2P3D Location',(0.,0.,0.)) ;
#183=CARTESIAN_POINT('Axis2P3D Location',(0.,0.,2.71030476891E-015)) ;
#188=CARTESIAN_POINT('Axis2P3D Location',(0.,0.,2.09798136934E-015)) ;
#192=CARTESIAN_POINT('Vertex',(-12.2861558665,6.71195754046,2.098001592E-015)) ;
#194=CARTESIAN_POINT('Vertex',(12.2861558665,-6.71195754046,2.098001592E-015)) ;
#197=CARTESIAN_POINT('Axis2P3D Location',(-16.6740686759,9.10908523348,2.71030476891E-015)) ;
#201=CARTESIAN_POINT('Vertex',(-13.1637384284,7.19138307906,3.)) ;
#204=CARTESIAN_POINT('Axis2P3D Location',(0.,0.,3.)) ;
#208=CARTESIAN_POINT('Vertex',(13.1637384284,-7.19138307906,3.)) ;
#211=CARTESIAN_POINT('Axis2P3D Location',(16.6740686759,-9.10908523348,2.71030476891E-015)) ;
#223=CARTESIAN_POINT('Axis2P3D Location',(0.,0.,2.09798136934E-015)) ;
#228=CARTESIAN_POINT('Axis2P3D Location',(0.,0.,3.)) ;
#240=CARTESIAN_POINT('Line Origine',(-13.1637384284,7.19138307906,14.9)) ;
#244=CARTESIAN_POINT('Vertex',(-13.1637384284,7.19138307906,42.8)) ;
#247=CARTESIAN_POINT('Axis2P3D Location',(0.,0.,42.8)) ;
#251=CARTESIAN_POINT('Vertex',(13.1637384284,-7.19138307906,42.8)) ;
#254=CARTESIAN_POINT('Line Origine',(13.1637384284,-7.19138307906,14.9)) ;
#266=CARTESIAN_POINT('Axis2P3D Location',(0.,0.,42.8)) ;
#278=CARTESIAN_POINT('Axis2P3D Location',(0.,0.,42.8)) ;
#283=CARTESIAN_POINT('Axis2P3D Location',(-11.2330567922,6.13664689413,42.8)) ;
#287=CARTESIAN_POINT('Vertex',(-11.2330567922,6.13664689413,45.)) ;
#290=CARTESIAN_POINT('Axis2P3D Location',(0.,0.,45.)) ;
#294=CARTESIAN_POINT('Vertex',(11.2330567922,-6.13664689413,45.)) ;
#297=CARTESIAN_POINT('Axis2P3D Location',(11.2330567922,-6.13664689413,42.8)) ;
#309=CARTESIAN_POINT('Axis2P3D Location',(0.,0.,45.)) ;
#321=CARTESIAN_POINT('Axis2P3D Location',(0.,0.,15.0000000002)) ;
#326=CARTESIAN_POINT('Axis2P3D Location',(0.,0.,45.)) ;
#330=CARTESIAN_POINT('Vertex',(-8.33703433796,4.55454261674,45.)) ;
#332=CARTESIAN_POINT('Vertex',(8.33703433796,-4.55454261674,45.)) ;
#335=CARTESIAN_POINT('Line Origine',(-8.33703433796,4.55454261674,24.5)) ;
#339=CARTESIAN_POINT('Vertex',(-8.33703433796,4.55454261674,4.)) ;
#342=CARTESIAN_POINT('Axis2P3D Location',(0.,0.,4.)) ;
#346=CARTESIAN_POINT('Vertex',(8.33703433796,-4.55454261674,4.)) ;
#349=CARTESIAN_POINT('Line Origine',(8.33703433796,-4.55454261674,24.5)) ;
#361=CARTESIAN_POINT('Axis2P3D Location',(0.,0.,45.)) ;
#366=CARTESIAN_POINT('Axis2P3D Location',(0.,0.,4.)) ;
#378=CARTESIAN_POINT('Axis2P3D Location',(0.,0.,15.0000000002)) ;
#383=CARTESIAN_POINT('Axis2P3D Location',(0.,0.,4.)) ;
#387=CARTESIAN_POINT('Vertex',(-9.21461689985,5.03396815534,4.)) ;
#389=CARTESIAN_POINT('Vertex',(9.21461689985,-5.03396815534,4.)) ;
#392=CARTESIAN_POINT('Line Origine',(-9.21461689985,5.03396815534,-5.5)) ;
#396=CARTESIAN_POINT('Vertex',(-9.21461689985,5.03396815534,-15.)) ;
#399=CARTESIAN_POINT('Axis2P3D Location',(0.,0.,-15.)) ;
#403=CARTESIAN_POINT('Vertex',(9.21461689985,-5.03396815534,-15.)) ;
#406=CARTESIAN_POINT('Line Origine',(9.21461689985,-5.03396815534,-5.5)) ;
#418=CARTESIAN_POINT('Axis2P3D Location',(0.,0.,4.)) ;
#423=CARTESIAN_POINT('Axis2P3D Location',(0.,0.,-15.)) ;
#435=CARTESIAN_POINT('Axis2P3D Location',(-10.5,0.,-15.)) ;
#449=CARTESIAN_POINT('Axis2P3D Location',(-15.,0.,0.)) ;
#463=CARTESIAN_POINT('Axis2P3D Location',(-12.8,0.,45.)) ;
#477=CARTESIAN_POINT('Axis2P3D Location',(-10.5,0.,4.)) ;
#52=DIRECTION('Vector Direction',(1.,0.,0.)) ;
#64=DIRECTION('Vector Direction',(0.,1.,0.)) ;
#73=DIRECTION('Vector Direction',(0.,0.,1.)) ;
#84=DIRECTION('Axis2P3D Direction',(-0.,-0.,1.)) ;
#85=DIRECTION('Axis2P3D XDirection',(-0.87758256189,0.479425538604,0.)) ;
#89=DIRECTION('Axis2P3D Direction',(-0.,0.,1.)) ;
#98=DIRECTION('Vector Direction',(-0.620544580564,0.339005049421,0.707106781187)) ;
#105=DIRECTION('Axis2P3D Direction',(-0.,0.,1.)) ;
#112=DIRECTION('Vector Direction',(0.620544580564,-0.339005049421,0.707106781187)) ;
#124=DIRECTION('Axis2P3D Direction',(-0.,0.,1.)) ;
#129=DIRECTION('Axis2P3D Direction',(-0.,0.,1.)) ;
#141=DIRECTION('Axis2P3D Direction',(0.,0.,-1.)) ;
#142=DIRECTION('Axis2P3D XDirection',(-0.87758256189,0.479425538604,-0.)) ;
#146=DIRECTION('Vector Direction',(0.,0.,-1.)) ;
#153=DIRECTION('Axis2P3D Direction',(0.,0.,-1.)) ;
#160=DIRECTION('Vector Direction',(0.,0.,-1.)) ;
#172=DIRECTION('Axis2P3D Direction',(0.,0.,-1.)) ;
#184=DIRECTION('Axis2P3D Direction',(0.,0.,-1.)) ;
#185=DIRECTION('Axis2P3D XDirection',(-0.87758256189,0.479425538604,0.)) ;
#189=DIRECTION('Axis2P3D Direction',(0.,0.,-1.)) ;
#198=DIRECTION('Axis2P3D Direction',(-0.479425538604,-0.87758256189,-0.)) ;
#205=DIRECTION('Axis2P3D Direction',(0.,0.,-1.)) ;
#212=DIRECTION('Axis2P3D Direction',(0.479425538604,0.87758256189,0.)) ;
#224=DIRECTION('Axis2P3D Direction',(0.,0.,-1.)) ;
#229=DIRECTION('Axis2P3D Direction',(0.,0.,-1.)) ;
#241=DIRECTION('Vector Direction',(0.,0.,-1.)) ;
#248=DIRECTION('Axis2P3D Direction',(0.,0.,-1.)) ;
#255=DIRECTION('Vector Direction',(0.,0.,-1.)) ;
#267=DIRECTION('Axis2P3D Direction',(0.,0.,-1.)) ;
#279=DIRECTION('Axis2P3D Direction',(0.,0.,-1.)) ;
#280=DIRECTION('Axis2P3D XDirection',(-0.87758256189,0.479425538604,0.)) ;
#284=DIRECTION('Axis2P3D Direction',(-0.479425538604,-0.87758256189,-0.)) ;
#291=DIRECTION('Axis2P3D Direction',(0.,0.,-1.)) ;
#298=DIRECTION('Axis2P3D Direction',(0.479425538604,0.87758256189,0.)) ;
#310=DIRECTION('Axis2P3D Direction',(0.,0.,-1.)) ;
#322=DIRECTION('Axis2P3D Direction',(0.,0.,-1.)) ;
#323=DIRECTION('Axis2P3D XDirection',(-0.87758256189,0.479425538604,-0.)) ;
#327=DIRECTION('Axis2P3D Direction',(0.,0.,-1.)) ;
#336=DIRECTION('Vector Direction',(0.,0.,-1.)) ;
#343=DIRECTION('Axis2P3D Direction',(0.,0.,-1.)) ;
#350=DIRECTION('Vector Direction',(0.,0.,-1.)) ;
#362=DIRECTION('Axis2P3D Direction',(0.,0.,-1.)) ;
#367=DIRECTION('Axis2P3D Direction',(0.,0.,-1.)) ;
#379=DIRECTION('Axis2P3D Direction',(0.,0.,-1.)) ;
#380=DIRECTION('Axis2P3D XDirection',(-0.87758256189,0.479425538604,-0.)) ;
#384=DIRECTION('Axis2P3D Direction',(0.,0.,-1.)) ;
#393=DIRECTION('Vector Direction',(0.,0.,-1.)) ;
#400=DIRECTION('Axis2P3D Direction',(0.,0.,-1.)) ;
#407=DIRECTION('Vector Direction',(0.,0.,-1.)) ;
#419=DIRECTION('Axis2P3D Direction',(0.,0.,-1.)) ;
#424=DIRECTION('Axis2P3D Direction',(0.,0.,-1.)) ;
#436=DIRECTION('Axis2P3D Direction',(0.,0.,-1.)) ;
#437=DIRECTION('Axis2P3D XDirection',(1.,0.,0.)) ;
#450=DIRECTION('Axis2P3D Direction',(0.,0.,-1.)) ;
#451=DIRECTION('Axis2P3D XDirection',(1.,0.,0.)) ;
#464=DIRECTION('Axis2P3D Direction',(0.,0.,-1.)) ;
#465=DIRECTION('Axis2P3D XDirection',(1.,0.,0.)) ;
#478=DIRECTION('Axis2P3D Direction',(0.,0.,-1.)) ;
#479=DIRECTION('Axis2P3D XDirection',(1.,0.,0.)) ;
#48=AXIS2_PLACEMENT_3D(' ',#47,$,$) ;
#86=AXIS2_PLACEMENT_3D('Cone Axis2P3D',#83,#84,#85) ;
#90=AXIS2_PLACEMENT_3D('Circle Axis2P3D',#88,#89,$) ;
#106=AXIS2_PLACEMENT_3D('Circle Axis2P3D',#104,#105,$) ;
#125=AXIS2_PLACEMENT_3D('Circle Axis2P3D',#123,#124,$) ;
#130=AXIS2_PLACEMENT_3D('Circle Axis2P3D',#128,#129,$) ;
#143=AXIS2_PLACEMENT_3D('Cylinder Axis2P3D',#140,#141,#142) ;
#154=AXIS2_PLACEMENT_3D('Circle Axis2P3D',#152,#153,$) ;
#173=AXIS2_PLACEMENT_3D('Circle Axis2P3D',#171,#172,$) ;
#186=AXIS2_PLACEMENT_3D('Torus Axis2P3D',#183,#184,#185) ;
#190=AXIS2_PLACEMENT_3D('Circle Axis2P3D',#188,#189,$) ;
#199=AXIS2_PLACEMENT_3D('Circle Axis2P3D',#197,#198,$) ;
#206=AXIS2_PLACEMENT_3D('Circle Axis2P3D',#204,#205,$) ;
#213=AXIS2_PLACEMENT_3D('Circle Axis2P3D',#211,#212,$) ;
#225=AXIS2_PLACEMENT_3D('Circle Axis2P3D',#223,#224,$) ;
#230=AXIS2_PLACEMENT_3D('Circle Axis2P3D',#228,#229,$) ;
#249=AXIS2_PLACEMENT_3D('Circle Axis2P3D',#247,#248,$) ;
#268=AXIS2_PLACEMENT_3D('Circle Axis2P3D',#266,#267,$) ;
#281=AXIS2_PLACEMENT_3D('Torus Axis2P3D',#278,#279,#280) ;
#285=AXIS2_PLACEMENT_3D('Circle Axis2P3D',#283,#284,$) ;
#292=AXIS2_PLACEMENT_3D('Circle Axis2P3D',#290,#291,$) ;
#299=AXIS2_PLACEMENT_3D('Circle Axis2P3D',#297,#298,$) ;
#311=AXIS2_PLACEMENT_3D('Circle Axis2P3D',#309,#310,$) ;
#324=AXIS2_PLACEMENT_3D('Cylinder Axis2P3D',#321,#322,#323) ;
#328=AXIS2_PLACEMENT_3D('Circle Axis2P3D',#326,#327,$) ;
#344=AXIS2_PLACEMENT_3D('Circle Axis2P3D',#342,#343,$) ;
#363=AXIS2_PLACEMENT_3D('Circle Axis2P3D',#361,#362,$) ;
#368=AXIS2_PLACEMENT_3D('Circle Axis2P3D',#366,#367,$) ;
#381=AXIS2_PLACEMENT_3D('Cylinder Axis2P3D',#378,#379,#380) ;
#385=AXIS2_PLACEMENT_3D('Circle Axis2P3D',#383,#384,$) ;
#401=AXIS2_PLACEMENT_3D('Circle Axis2P3D',#399,#400,$) ;
#420=AXIS2_PLACEMENT_3D('Circle Axis2P3D',#418,#419,$) ;
#425=AXIS2_PLACEMENT_3D('Circle Axis2P3D',#423,#424,$) ;
#438=AXIS2_PLACEMENT_3D('Plane Axis2P3D',#435,#436,#437) ;
#452=AXIS2_PLACEMENT_3D('Plane Axis2P3D',#449,#450,#451) ;
#466=AXIS2_PLACEMENT_3D('Plane Axis2P3D',#463,#464,#465) ;
#480=AXIS2_PLACEMENT_3D('Plane Axis2P3D',#477,#478,#479) ;
#40=PRODUCT_DEFINITION_SHAPE(' ',' ',#14) ;
#59=COMPOSITE_CURVE('Linea.1',(#58),.U.) ;
#71=COMPOSITE_CURVE('Linea.2',(#70),.U.) ;
#80=COMPOSITE_CURVE('Linea.3',(#79),.U.) ;
#58=COMPOSITE_CURVE_SEGMENT(.DISCONTINUOUS.,.T.,#57) ;
#70=COMPOSITE_CURVE_SEGMENT(.DISCONTINUOUS.,.T.,#69) ;
#79=COMPOSITE_CURVE_SEGMENT(.DISCONTINUOUS.,.T.,#78) ;
#31=APPROVAL_PERSON_ORGANIZATION(#25,#21,#19) ;
#25=PERSON_AND_ORGANIZATION(#22,#23) ;
#22=PERSON(' ',' ',' ',$,$,$) ;
#23=ORGANIZATION(' ',' ',' ') ;
#21=APPROVAL(#20,' ') ;
#20=APPROVAL_STATUS('not_yet_approved') ;
#19=APPROVAL_ROLE('APPROVER') ;
#13=DATE_AND_TIME(#11,#12) ;
#12=LOCAL_TIME(15,5,30.,#10) ;
#10=COORDINATED_UNIVERSAL_TIME_OFFSET(0,0,.AHEAD.) ;
#117=ORIENTED_EDGE('',*,*,#96,.F.) ;
#118=ORIENTED_EDGE('',*,*,#103,.T.) ;
#119=ORIENTED_EDGE('',*,*,#110,.T.) ;
#120=ORIENTED_EDGE('',*,*,#115,.F.) ;
#134=ORIENTED_EDGE('',*,*,#127,.F.) ;
#135=ORIENTED_EDGE('',*,*,#115,.T.) ;
#136=ORIENTED_EDGE('',*,*,#132,.T.) ;
#137=ORIENTED_EDGE('',*,*,#103,.F.) ;
#165=ORIENTED_EDGE('',*,*,#110,.F.) ;
#166=ORIENTED_EDGE('',*,*,#151,.T.) ;
#167=ORIENTED_EDGE('',*,*,#158,.T.) ;
#168=ORIENTED_EDGE('',*,*,#163,.F.) ;
#177=ORIENTED_EDGE('',*,*,#132,.F.) ;
#178=ORIENTED_EDGE('',*,*,#163,.T.) ;
#179=ORIENTED_EDGE('',*,*,#175,.T.) ;
#180=ORIENTED_EDGE('',*,*,#151,.F.) ;
#217=ORIENTED_EDGE('',*,*,#196,.F.) ;
#218=ORIENTED_EDGE('',*,*,#203,.T.) ;
#219=ORIENTED_EDGE('',*,*,#210,.T.) ;
#220=ORIENTED_EDGE('',*,*,#215,.F.) ;
#234=ORIENTED_EDGE('',*,*,#227,.F.) ;
#235=ORIENTED_EDGE('',*,*,#215,.T.) ;
#236=ORIENTED_EDGE('',*,*,#232,.T.) ;
#237=ORIENTED_EDGE('',*,*,#203,.F.) ;
#260=ORIENTED_EDGE('',*,*,#210,.F.) ;
#261=ORIENTED_EDGE('',*,*,#246,.T.) ;
#262=ORIENTED_EDGE('',*,*,#253,.T.) ;
#263=ORIENTED_EDGE('',*,*,#258,.F.) ;
#272=ORIENTED_EDGE('',*,*,#232,.F.) ;
#273=ORIENTED_EDGE('',*,*,#258,.T.) ;
#274=ORIENTED_EDGE('',*,*,#270,.T.) ;
#275=ORIENTED_EDGE('',*,*,#246,.F.) ;
#303=ORIENTED_EDGE('',*,*,#253,.F.) ;
#304=ORIENTED_EDGE('',*,*,#289,.T.) ;
#305=ORIENTED_EDGE('',*,*,#296,.T.) ;
#306=ORIENTED_EDGE('',*,*,#301,.F.) ;
#315=ORIENTED_EDGE('',*,*,#270,.F.) ;
#316=ORIENTED_EDGE('',*,*,#301,.T.) ;
#317=ORIENTED_EDGE('',*,*,#313,.T.) ;
#318=ORIENTED_EDGE('',*,*,#289,.F.) ;
#355=ORIENTED_EDGE('',*,*,#334,.F.) ;
#356=ORIENTED_EDGE('',*,*,#341,.T.) ;
#357=ORIENTED_EDGE('',*,*,#348,.T.) ;
#358=ORIENTED_EDGE('',*,*,#353,.F.) ;
#372=ORIENTED_EDGE('',*,*,#365,.F.) ;
#373=ORIENTED_EDGE('',*,*,#353,.T.) ;
#374=ORIENTED_EDGE('',*,*,#370,.T.) ;
#375=ORIENTED_EDGE('',*,*,#341,.F.) ;
#412=ORIENTED_EDGE('',*,*,#391,.F.) ;
#413=ORIENTED_EDGE('',*,*,#398,.T.) ;
#414=ORIENTED_EDGE('',*,*,#405,.T.) ;
#415=ORIENTED_EDGE('',*,*,#410,.F.) ;
#429=ORIENTED_EDGE('',*,*,#422,.F.) ;
#430=ORIENTED_EDGE('',*,*,#410,.T.) ;
#431=ORIENTED_EDGE('',*,*,#427,.T.) ;
#432=ORIENTED_EDGE('',*,*,#398,.F.) ;
#441=ORIENTED_EDGE('',*,*,#127,.T.) ;
#442=ORIENTED_EDGE('',*,*,#96,.T.) ;
#445=ORIENTED_EDGE('',*,*,#405,.F.) ;
#446=ORIENTED_EDGE('',*,*,#427,.F.) ;
#455=ORIENTED_EDGE('',*,*,#158,.F.) ;
#456=ORIENTED_EDGE('',*,*,#175,.F.) ;
#459=ORIENTED_EDGE('',*,*,#227,.T.) ;
#460=ORIENTED_EDGE('',*,*,#196,.T.) ;
#469=ORIENTED_EDGE('',*,*,#296,.F.) ;
#470=ORIENTED_EDGE('',*,*,#313,.F.) ;
#473=ORIENTED_EDGE('',*,*,#365,.T.) ;
#474=ORIENTED_EDGE('',*,*,#334,.T.) ;
#483=ORIENTED_EDGE('',*,*,#422,.T.) ;
#484=ORIENTED_EDGE('',*,*,#391,.T.) ;
#487=ORIENTED_EDGE('',*,*,#348,.F.) ;
#488=ORIENTED_EDGE('',*,*,#370,.F.) ;
#447=FACE_BOUND('',#444,.T.) ;
#461=FACE_BOUND('',#458,.T.) ;
#475=FACE_BOUND('',#472,.T.) ;
#489=FACE_BOUND('',#486,.T.) ;
#82=CLOSED_SHELL('Closed Shell',(#122,#139,#170,#182,#222,#239,#265,#277,#308,#320,#360,#377,#417,#434,#448,#462,#476,#490)) ;
#53=VECTOR('Line Direction',#52,1.) ;
#65=VECTOR('Line Direction',#64,1.) ;
#74=VECTOR('Line Direction',#73,1.) ;
#99=VECTOR('Line Direction',#98,1.) ;
#113=VECTOR('Line Direction',#112,1.) ;
#147=VECTOR('Line Direction',#146,1.) ;
#161=VECTOR('Line Direction',#160,1.) ;
#242=VECTOR('Line Direction',#241,1.) ;
#256=VECTOR('Line Direction',#255,1.) ;
#337=VECTOR('Line Direction',#336,1.) ;
#351=VECTOR('Line Direction',#350,1.) ;
#394=VECTOR('Line Direction',#393,1.) ;
#408=VECTOR('Line Direction',#407,1.) ;
#492=ADVANCED_BREP_SHAPE_REPRESENTATION('NONE',(#491),#46) ;
#49=SHAPE_REPRESENTATION(' ',(#48),#46) ;
#122=ADVANCED_FACE('PartBody',(#121),#87,.T.) ;
#139=ADVANCED_FACE('PartBody',(#138),#87,.T.) ;
#170=ADVANCED_FACE('PartBody',(#169),#144,.T.) ;
#182=ADVANCED_FACE('PartBody',(#181),#144,.T.) ;
#222=ADVANCED_FACE('PartBody',(#221),#187,.F.) ;
#239=ADVANCED_FACE('PartBody',(#238),#187,.F.) ;
#265=ADVANCED_FACE('PartBody',(#264),#144,.T.) ;
#277=ADVANCED_FACE('PartBody',(#276),#144,.T.) ;
#308=ADVANCED_FACE('PartBody',(#307),#282,.T.) ;
#320=ADVANCED_FACE('PartBody',(#319),#282,.T.) ;
#360=ADVANCED_FACE('PartBody',(#359),#325,.F.) ;
#377=ADVANCED_FACE('PartBody',(#376),#325,.F.) ;
#417=ADVANCED_FACE('PartBody',(#416),#382,.F.) ;
#434=ADVANCED_FACE('PartBody',(#433),#382,.F.) ;
#448=ADVANCED_FACE('PartBody',(#443,#447),#439,.T.) ;
#462=ADVANCED_FACE('PartBody',(#457,#461),#453,.F.) ;
#476=ADVANCED_FACE('PartBody',(#471,#475),#467,.F.) ;
#490=ADVANCED_FACE('PartBody',(#485,#489),#481,.T.) ;
#4=APPLICATION_PROTOCOL_DEFINITION('international standard','config_control_design',1994,#1) ;
#32=APPROVAL_DATE_TIME(#13,#21) ;
#491=MANIFOLD_SOLID_BREP('PartBody',#82) ;
#11=CALENDAR_DATE(2017,7,3) ;
#30=CC_DESIGN_APPROVAL(#21,(#16,#6,#14)) ;
#18=CC_DESIGN_DATE_AND_TIME_ASSIGNMENT(#13,#17,(#16)) ;
#29=CC_DESIGN_DATE_AND_TIME_ASSIGNMENT(#13,#28,(#14)) ;
#17=DATE_TIME_ROLE('classification_date') ;
#28=DATE_TIME_ROLE('creation_date') ;
#27=CC_DESIGN_PERSON_AND_ORGANIZATION_ASSIGNMENT(#25,#26,(#16)) ;
#33=CC_DESIGN_PERSON_AND_ORGANIZATION_ASSIGNMENT(#25,#34,(#6)) ;
#35=CC_DESIGN_PERSON_AND_ORGANIZATION_ASSIGNMENT(#25,#36,(#6,#14)) ;
#37=CC_DESIGN_PERSON_AND_ORGANIZATION_ASSIGNMENT(#25,#38,(#5)) ;
#26=PERSON_AND_ORGANIZATION_ROLE('classification_officer') ;
#34=PERSON_AND_ORGANIZATION_ROLE('design_supplier') ;
#36=PERSON_AND_ORGANIZATION_ROLE('creator') ;
#38=PERSON_AND_ORGANIZATION_ROLE('design_owner') ;
#39=CC_DESIGN_SECURITY_CLASSIFICATION(#16,(#6)) ;
#91=CIRCLE('generated circle',#90,13.) ;
#107=CIRCLE('generated circle',#106,15.) ;
#126=CIRCLE('generated circle',#125,13.) ;
#131=CIRCLE('generated circle',#130,15.) ;
#155=CIRCLE('generated circle',#154,15.) ;
#174=CIRCLE('generated circle',#173,15.) ;
#191=CIRCLE('generated circle',#190,14.) ;
#200=CIRCLE('generated circle',#199,5.) ;
#207=CIRCLE('generated circle',#206,15.) ;
#214=CIRCLE('generated circle',#213,5.) ;
#226=CIRCLE('generated circle',#225,14.) ;
#231=CIRCLE('generated circle',#230,15.) ;
#250=CIRCLE('generated circle',#249,15.) ;
#269=CIRCLE('generated circle',#268,15.) ;
#286=CIRCLE('generated circle',#285,2.2) ;
#293=CIRCLE('generated circle',#292,12.8) ;
#300=CIRCLE('generated circle',#299,2.2) ;
#312=CIRCLE('generated circle',#311,12.8) ;
#329=CIRCLE('generated circle',#328,9.5) ;
#345=CIRCLE('generated circle',#344,9.5) ;
#364=CIRCLE('generated circle',#363,9.5) ;
#369=CIRCLE('generated circle',#368,9.5) ;
#386=CIRCLE('generated circle',#385,10.5) ;
#402=CIRCLE('generated circle',#401,10.5) ;
#421=CIRCLE('generated circle',#420,10.5) ;
#426=CIRCLE('generated circle',#425,10.5) ;
#87=CONICAL_SURFACE('Cone',#86,13.,0.785398163397) ;
#62=SHAPE_REPRESENTATION_RELATIONSHIP(' ',' ',#49,#60) ;
#493=SHAPE_REPRESENTATION_RELATIONSHIP(' ',' ',#49,#492) ;
#144=CYLINDRICAL_SURFACE('generated cylinder',#143,15.) ;
#325=CYLINDRICAL_SURFACE('generated cylinder',#324,9.5) ;
#382=CYLINDRICAL_SURFACE('generated cylinder',#381,10.5) ;
#187=TOROIDAL_SURFACE('homeo Torus',#186,19.,5.) ;
#282=TOROIDAL_SURFACE('homeo Torus',#281,12.8,2.2) ;
#3=DESIGN_CONTEXT(' ',#1,'design') ;
#96=EDGE_CURVE('',#93,#95,#91,.F.) ;
#103=EDGE_CURVE('',#93,#102,#100,.T.) ;
#110=EDGE_CURVE('',#102,#109,#107,.F.) ;
#115=EDGE_CURVE('',#95,#109,#114,.T.) ;
#127=EDGE_CURVE('',#95,#93,#126,.F.) ;
#132=EDGE_CURVE('',#109,#102,#131,.F.) ;
#151=EDGE_CURVE('',#102,#150,#148,.F.) ;
#158=EDGE_CURVE('',#150,#157,#155,.T.) ;
#163=EDGE_CURVE('',#109,#157,#162,.F.) ;
#175=EDGE_CURVE('',#157,#150,#174,.T.) ;
#196=EDGE_CURVE('',#193,#195,#191,.T.) ;
#203=EDGE_CURVE('',#193,#202,#200,.T.) ;
#210=EDGE_CURVE('',#202,#209,#207,.T.) ;
#215=EDGE_CURVE('',#195,#209,#214,.T.) ;
#227=EDGE_CURVE('',#195,#193,#226,.T.) ;
#232=EDGE_CURVE('',#209,#202,#231,.T.) ;
#246=EDGE_CURVE('',#202,#245,#243,.F.) ;
#253=EDGE_CURVE('',#245,#252,#250,.T.) ;
#258=EDGE_CURVE('',#209,#252,#257,.F.) ;
#270=EDGE_CURVE('',#252,#245,#269,.T.) ;
#289=EDGE_CURVE('',#245,#288,#286,.F.) ;
#296=EDGE_CURVE('',#288,#295,#293,.T.) ;
#301=EDGE_CURVE('',#252,#295,#300,.F.) ;
#313=EDGE_CURVE('',#295,#288,#312,.T.) ;
#334=EDGE_CURVE('',#331,#333,#329,.T.) ;
#341=EDGE_CURVE('',#331,#340,#338,.T.) ;
#348=EDGE_CURVE('',#340,#347,#345,.T.) ;
#353=EDGE_CURVE('',#333,#347,#352,.T.) ;
#365=EDGE_CURVE('',#333,#331,#364,.T.) ;
#370=EDGE_CURVE('',#347,#340,#369,.T.) ;
#391=EDGE_CURVE('',#388,#390,#386,.T.) ;
#398=EDGE_CURVE('',#388,#397,#395,.T.) ;
#405=EDGE_CURVE('',#397,#404,#402,.T.) ;
#410=EDGE_CURVE('',#390,#404,#409,.T.) ;
#422=EDGE_CURVE('',#390,#388,#421,.T.) ;
#427=EDGE_CURVE('',#404,#397,#426,.T.) ;
#116=EDGE_LOOP('',(#117,#118,#119,#120)) ;
#133=EDGE_LOOP('',(#134,#135,#136,#137)) ;
#164=EDGE_LOOP('',(#165,#166,#167,#168)) ;
#176=EDGE_LOOP('',(#177,#178,#179,#180)) ;
#216=EDGE_LOOP('',(#217,#218,#219,#220)) ;
#233=EDGE_LOOP('',(#234,#235,#236,#237)) ;
#259=EDGE_LOOP('',(#260,#261,#262,#263)) ;
#271=EDGE_LOOP('',(#272,#273,#274,#275)) ;
#302=EDGE_LOOP('',(#303,#304,#305,#306)) ;
#314=EDGE_LOOP('',(#315,#316,#317,#318)) ;
#354=EDGE_LOOP('',(#355,#356,#357,#358)) ;
#371=EDGE_LOOP('',(#372,#373,#374,#375)) ;
#411=EDGE_LOOP('',(#412,#413,#414,#415)) ;
#428=EDGE_LOOP('',(#429,#430,#431,#432)) ;
#440=EDGE_LOOP('',(#441,#442)) ;
#444=EDGE_LOOP('',(#445,#446)) ;
#454=EDGE_LOOP('',(#455,#456)) ;
#458=EDGE_LOOP('',(#459,#460)) ;
#468=EDGE_LOOP('',(#469,#470)) ;
#472=EDGE_LOOP('',(#473,#474)) ;
#482=EDGE_LOOP('',(#483,#484)) ;
#486=EDGE_LOOP('',(#487,#488)) ;
#121=FACE_OUTER_BOUND('',#116,.T.) ;
#138=FACE_OUTER_BOUND('',#133,.T.) ;
#169=FACE_OUTER_BOUND('',#164,.T.) ;
#181=FACE_OUTER_BOUND('',#176,.T.) ;
#221=FACE_OUTER_BOUND('',#216,.T.) ;
#238=FACE_OUTER_BOUND('',#233,.T.) ;
#264=FACE_OUTER_BOUND('',#259,.T.) ;
#276=FACE_OUTER_BOUND('',#271,.T.) ;
#307=FACE_OUTER_BOUND('',#302,.T.) ;
#319=FACE_OUTER_BOUND('',#314,.T.) ;
#359=FACE_OUTER_BOUND('',#354,.T.) ;
#376=FACE_OUTER_BOUND('',#371,.T.) ;
#416=FACE_OUTER_BOUND('',#411,.T.) ;
#433=FACE_OUTER_BOUND('',#428,.T.) ;
#443=FACE_OUTER_BOUND('',#440,.T.) ;
#457=FACE_OUTER_BOUND('',#454,.T.) ;
#471=FACE_OUTER_BOUND('',#468,.T.) ;
#485=FACE_OUTER_BOUND('',#482,.T.) ;
#61=GEOMETRIC_SET('NONE',(#59,#71,#80,#81)) ;
#60=GEOMETRICALLY_BOUNDED_SURFACE_SHAPE_REPRESENTATION('NONE',(#61),#46) ;
#45=UNCERTAINTY_MEASURE_WITH_UNIT(LENGTH_MEASURE(0.005),#41,'distance_accuracy_value','CONFUSED CURVE UNCERTAINTY') ;
#54=LINE('Line',#51,#53) ;
#66=LINE('Line',#63,#65) ;
#75=LINE('Line',#72,#74) ;
#100=LINE('Line',#97,#99) ;
#114=LINE('Line',#111,#113) ;
#148=LINE('Line',#145,#147) ;
#162=LINE('Line',#159,#161) ;
#243=LINE('Line',#240,#242) ;
#257=LINE('Line',#254,#256) ;
#338=LINE('Line',#335,#337) ;
#352=LINE('Line',#349,#351) ;
#395=LINE('Line',#392,#394) ;
#409=LINE('Line',#406,#408) ;
#2=MECHANICAL_CONTEXT(' ',#1,'mechanical') ;
#24=PERSONAL_ADDRESS(' ',' ',' ',' ',' ',' ',' ',' ',' ',' ',' ',' ',(#22),' ') ;
#439=PLANE('Plane',#438) ;
#453=PLANE('Plane',#452) ;
#467=PLANE('Plane',#466) ;
#481=PLANE('Plane',#480) ;
#43=PLANE_ANGLE_MEASURE_WITH_UNIT(PLANE_ANGLE_MEASURE(0.0174532925199),#42) ;
#7=PRODUCT_CATEGORY('part',$) ;
#9=PRODUCT_CATEGORY_RELATIONSHIP(' ',' ',#7,#8) ;
#6=PRODUCT_DEFINITION_FORMATION_WITH_SPECIFIED_SOURCE('',' ',#5,.NOT_KNOWN.) ;
#8=PRODUCT_RELATED_PRODUCT_CATEGORY('detail',$,(#5)) ;
#50=SHAPE_DEFINITION_REPRESENTATION(#40,#49) ;
#57=TRIMMED_CURVE('',#54,(#55),(#56),.T.,.CARTESIAN.) ;
#69=TRIMMED_CURVE('',#66,(#67),(#68),.T.,.CARTESIAN.) ;
#78=TRIMMED_CURVE('',#75,(#76),(#77),.T.,.CARTESIAN.) ;
#93=VERTEX_POINT('',#92) ;
#95=VERTEX_POINT('',#94) ;
#102=VERTEX_POINT('',#101) ;
#109=VERTEX_POINT('',#108) ;
#150=VERTEX_POINT('',#149) ;
#157=VERTEX_POINT('',#156) ;
#193=VERTEX_POINT('',#192) ;
#195=VERTEX_POINT('',#194) ;
#202=VERTEX_POINT('',#201) ;
#209=VERTEX_POINT('',#208) ;
#245=VERTEX_POINT('',#244) ;
#252=VERTEX_POINT('',#251) ;
#288=VERTEX_POINT('',#287) ;
#295=VERTEX_POINT('',#294) ;
#331=VERTEX_POINT('',#330) ;
#333=VERTEX_POINT('',#332) ;
#340=VERTEX_POINT('',#339) ;
#347=VERTEX_POINT('',#346) ;
#388=VERTEX_POINT('',#387) ;
#390=VERTEX_POINT('',#389) ;
#397=VERTEX_POINT('',#396) ;
#404=VERTEX_POINT('',#403) ;
#41=(LENGTH_UNIT()NAMED_UNIT(*)SI_UNIT(.MILLI.,.METRE.)) ;
#42=(NAMED_UNIT(*)PLANE_ANGLE_UNIT()SI_UNIT($,.RADIAN.)) ;
#44=(NAMED_UNIT(*)SI_UNIT($,.STERADIAN.)SOLID_ANGLE_UNIT()) ;
#46=(GEOMETRIC_REPRESENTATION_CONTEXT(3)GLOBAL_UNCERTAINTY_ASSIGNED_CONTEXT((#45))GLOBAL_UNIT_ASSIGNED_CONTEXT((#41,#42,#44))REPRESENTATION_CONTEXT(' ',' ')) ;
ENDSEC;
END-ISO-10303-21;
